Led Zeppelin Stairway to Heaven Tabs
 accurate tabs for the legendary song
Home

Stairway Chords

Stairway Download

Stairway Lyrics

Stairway History

Stairway Bass Tabs

Stairway Drum Tabs

Led Zeppelin

Jimmy Page

Robert Plant

Guitar Tab Legend

Understanding Tabs

Music Notation

Stairway to Heaven Tabs Intro Tabs Main Section Tabs Guitar Solo Tabs


Stairway to Heaven Tabs - Full Song Tablature

Intro


E-------5-7-----7-|-8-----8-2-----2-|-0---------0-----|
B-----5-----5-----|---5-------3-----|---1---1-----1---|
G---5---------5---|-----5-------2---|-----2---------2-|
D-7-------6-------|-5-------4-------|-3---------------|
A-----------------|-----------------|-----------------|
E-----------------|-----------------|-----------------|

E-----------------|---------7-----7-|-8-----8-2-----2-|
B-0-1-1-----------|-------5---5-----|---5-------3-----|
G-0-2-2-----------|-----5-------5---|-----5-------2---|
D-----------------|---7-----6-------|-5-------4-------|
A-2-0-0---0--/8-7-|-0---------------|-----------------|
E-----------------|-----------------|-----------------|

E-0---------0-----|-----------------|-------0-2-----2-|
B---1---1-----1---|-0-1-1-----------|-----------3-----|
G-----2---------2-|-0-2-2-----------|-----0-------2---|
D-3---------------|-----------------|---2-----0-------|
A-----------------|-2-0-0-------0-2-|-3---------------|
E-----------------|-----------------|-----------------|

E-0-----0---------|---------3-----3-|-3p-2-2-2--------|
B---1-----0-------|-1-----1---0-----|-3----3-3--------|
G-----2-----2-----|---0---------0---|-2----2-2--------|
D-3---------------|-----2-----------|-----------------|
A---------0---0-2-|-3---------------|-----------------|
E-----------------|---------3-------|-----------------|

Verse


All tabs and content are 2008 StairwayToHeavenTabs.com. All rights reserved.